[phpBB Debug] PHP Notice: in file /includes/bbcode.php on line 483: preg_replace(): The /e modifier is no longer supported, use preg_replace_callback instead
[phpBB Debug] PHP Notice: in file /includes/bbcode.php on line 483: preg_replace(): The /e modifier is no longer supported, use preg_replace_callback instead
[phpBB Debug] PHP Notice: in file /includes/bbcode.php on line 483: preg_replace(): The /e modifier is no longer supported, use preg_replace_callback instead
[phpBB Debug] PHP Notice: in file /includes/bbcode.php on line 483: preg_replace(): The /e modifier is no longer supported, use preg_replace_callback instead
[phpBB Debug] PHP Notice: in file /includes/bbcode.php on line 483: preg_replace(): The /e modifier is no longer supported, use preg_replace_callback instead
[phpBB Debug] PHP Notice: in file /includes/bbcode.php on line 483: preg_replace(): The /e modifier is no longer supported, use preg_replace_callback instead
[phpBB Debug] PHP Notice: in file /includes/bbcode.php on line 483: preg_replace(): The /e modifier is no longer supported, use preg_replace_callback instead
[phpBB Debug] PHP Notice: in file /includes/bbcode.php on line 483: preg_replace(): The /e modifier is no longer supported, use preg_replace_callback instead
[phpBB Debug] PHP Notice: in file /includes/bbcode.php on line 483: preg_replace(): The /e modifier is no longer supported, use preg_replace_callback instead
[phpBB Debug] PHP Notice: in file /includes/bbcode.php on line 483: preg_replace(): The /e modifier is no longer supported, use preg_replace_callback instead
[phpBB Debug] PHP Notice: in file /includes/bbcode.php on line 483: preg_replace(): The /e modifier is no longer supported, use preg_replace_callback instead
[phpBB Debug] PHP Notice: in file /includes/bbcode.php on line 483: preg_replace(): The /e modifier is no longer supported, use preg_replace_callback instead
[phpBB Debug] PHP Notice: in file /includes/bbcode.php on line 483: preg_replace(): The /e modifier is no longer supported, use preg_replace_callback instead
[phpBB Debug] PHP Notice: in file /includes/bbcode.php on line 483: preg_replace(): The /e modifier is no longer supported, use preg_replace_callback instead
[phpBB Debug] PHP Notice: in file /includes/bbcode.php on line 483: preg_replace(): The /e modifier is no longer supported, use preg_replace_callback instead
[phpBB Debug] PHP Notice: in file /includes/bbcode.php on line 483: preg_replace(): The /e modifier is no longer supported, use preg_replace_callback instead
[phpBB Debug] PHP Notice: in file /includes/bbcode.php on line 483: preg_replace(): The /e modifier is no longer supported, use preg_replace_callback instead
[phpBB Debug] PHP Notice: in file /includes/bbcode.php on line 483: preg_replace(): The /e modifier is no longer supported, use preg_replace_callback instead
[phpBB Debug] PHP Notice: in file /includes/bbcode.php on line 483: preg_replace(): The /e modifier is no longer supported, use preg_replace_callback instead
[phpBB Debug] PHP Notice: in file /includes/bbcode.php on line 483: preg_replace(): The /e modifier is no longer supported, use preg_replace_callback instead
[phpBB Debug] PHP Notice: in file /includes/bbcode.php on line 483: preg_replace(): The /e modifier is no longer supported, use preg_replace_callback instead
[phpBB Debug] PHP Notice: in file /includes/bbcode.php on line 483: preg_replace(): The /e modifier is no longer supported, use preg_replace_callback instead
[phpBB Debug] PHP Notice: in file /includes/bbcode.php on line 483: preg_replace(): The /e modifier is no longer supported, use preg_replace_callback instead
[phpBB Debug] PHP Notice: in file /includes/bbcode.php on line 483: preg_replace(): The /e modifier is no longer supported, use preg_replace_callback instead
[phpBB Debug] PHP Notice: in file /includes/bbcode.php on line 483: preg_replace(): The /e modifier is no longer supported, use preg_replace_callback instead
[phpBB Debug] PHP Notice: in file /includes/bbcode.php on line 483: preg_replace(): The /e modifier is no longer supported, use preg_replace_callback instead
[phpBB Debug] PHP Notice: in file /includes/bbcode.php on line 112: preg_replace(): The /e modifier is no longer supported, use preg_replace_callback instead
[phpBB Debug] PHP Notice: in file /includes/bbcode.php on line 112: preg_replace(): The /e modifier is no longer supported, use preg_replace_callback instead
[phpBB Debug] PHP Notice: in file /includes/bbcode.php on line 112: preg_replace(): The /e modifier is no longer supported, use preg_replace_callback instead
[phpBB Debug] PHP Notice: in file /includes/bbcode.php on line 112: preg_replace(): The /e modifier is no longer supported, use preg_replace_callback instead
[phpBB Debug] PHP Notice: in file /includes/bbcode.php on line 112: preg_replace(): The /e modifier is no longer supported, use preg_replace_callback instead
[phpBB Debug] PHP Notice: in file /includes/bbcode.php on line 112: preg_replace(): The /e modifier is no longer supported, use preg_replace_callback instead
[phpBB Debug] PHP Notice: in file /includes/functions.php on line 4304: Cannot modify header information - headers already sent by (output started at /includes/functions.php:3493)
[phpBB Debug] PHP Notice: in file /includes/functions.php on line 4306: Cannot modify header information - headers already sent by (output started at /includes/functions.php:3493)
[phpBB Debug] PHP Notice: in file /includes/functions.php on line 4307: Cannot modify header information - headers already sent by (output started at /includes/functions.php:3493)
[phpBB Debug] PHP Notice: in file /includes/functions.php on line 4308: Cannot modify header information - headers already sent by (output started at /includes/functions.php:3493)
Починковский форум • Просмотр темы - Гитаристы всех стран-объединяйтесь!
Main page На главную
Форум
Схема Починок
Фотогалерея

  Починковский форум

сайт ВПочинках.РФ
 
Текущее время: 08 дек 2021, 13:54

Часовой пояс: UTC + 3 часа




Форум закрыт Эта тема закрыта, Вы не можете редактировать и оставлять сообщения в ней.  [ Сообщений: 54 ]  На страницу Пред.  1, 2, 3, 4  След.
Автор Сообщение
 Заголовок сообщения:
СообщениеДобавлено: 11 сен 2006, 17:45 
Не в сети
Завсегдатай
Завсегдатай
Аватар пользователя

Зарегистрирован: 21 авг 2006, 16:35
Сообщений: 92
Откуда: не скажу :р

_________________
(\_/)
(='.'
Е[:]||||||[:]З
(") (") Всех с Наступившим!


Пожаловаться на это сообщение
Вернуться наверх
 Профиль  
Ответить с цитатой  
 Заголовок сообщения:
СообщениеДобавлено: 11 сен 2006, 18:01 
Не в сети
Активист форума
Активист форума
Аватар пользователя

Зарегистрирован: 08 дек 2005, 23:57
Сообщений: 106
Откуда: Москва

_________________
Иногда шаг вперед есть результат пинка в зад


Пожаловаться на это сообщение
Вернуться наверх
 Профиль  
Ответить с цитатой  
 Заголовок сообщения:
СообщениеДобавлено: 11 сен 2006, 20:01 
Не в сети
Завсегдатай
Завсегдатай
Аватар пользователя

Зарегистрирован: 21 авг 2006, 16:35
Сообщений: 92
Откуда: не скажу :р

_________________
(\_/)
(='.'
Е[:]||||||[:]З
(") (") Всех с Наступившим!


Пожаловаться на это сообщение
Вернуться наверх
 Профиль  
Ответить с цитатой  
 Заголовок сообщения:
СообщениеДобавлено: 12 сен 2006, 12:01 
Не в сети
Душа компании
Душа компании
Аватар пользователя

Зарегистрирован: 25 дек 2005, 16:39
Сообщений: 185

_________________
Иногда, страх помогает думать и говорить... Твой кошмар уже рядом...


Пожаловаться на это сообщение
Вернуться наверх
 Профиль  
Ответить с цитатой  
 Заголовок сообщения:
СообщениеДобавлено: 12 сен 2006, 21:25 
Не в сети
Форумчанин
Форумчанин
Аватар пользователя

Зарегистрирован: 16 июл 2006, 00:22
Сообщений: 61
Откуда: NN
А мне нравится "Лесник" КиШа, особенно вступление-->>
Am F
2) --------------5-5--------------5-5-----------8-8-6-6---------8-8-6-6-
3) -----5-5-7-7---------5-5-7-7----------5-5--------------5-5---------
4) -7-7--------------7-7---------------7-7---------------7-7-------------

Dm G
2) -8-8-6-6-5-5-----8-8-6-6-5-5-------------------------------------
3) ---------------7-7---------------7-7-----4-4-5-5-7-7-----4-4-5-5-7-7-
4) --------------------------------------5-5---------------5-5-------------

Am F
2) -------------5---------------5-----------8---6-----------8---6---
3) -----5---7------------5--7-----------5----------------5----------
4) -7---------------7--7------------7---------------7--7------------

Dm G
2) -8---6---5-------8--8-6--5---------------------------------------
3) -------------7---------------7-------4---5---7--------4--5---7---
4) ---------------------------------5---------------5--5------------

зыы: правда под акустику звучит легковато, зато мелодично..

_________________
Человек Человеку - СВЕТ!!


Пожаловаться на это сообщение
Вернуться наверх
 Профиль  
Ответить с цитатой  
 Заголовок сообщения:
СообщениеДобавлено: 12 сен 2006, 22:15 
Не в сети
Гордость форума
Гордость форума
Аватар пользователя

Зарегистрирован: 29 окт 2005, 11:58
Сообщений: 458
Откуда: Н. Новгород
Отличная идея - начинать свой путь гитариста с НИРВАНЫ, особенно с концерта АНПЛАГД, где все композиции как раз адаптированы для игры на акустике (кстати, это ГРАНЖ, а ни ПАНК). , хотя гитары у меня под рукой нет, но если память мне не изменяет, то таб правильный. Рекомендую петь себе под нос, главное, чтоб соседи не сильно выражали своё одобрение, посредством ритмичных ударов головы об стену. ;-)


Пожаловаться на это сообщение
Вернуться наверх
 Профиль  
Ответить с цитатой  
 Заголовок сообщения:
СообщениеДобавлено: 12 сен 2006, 22:34 
Не в сети
Активист форума
Активист форума
Аватар пользователя

Зарегистрирован: 20 июл 2006, 21:11
Сообщений: 115
Откуда: НиНо
Unplugged-супер!! Это лебединая песня Нирваны.

_________________
..::No fate::..


Пожаловаться на это сообщение
Вернуться наверх
 Профиль  
Ответить с цитатой  
 Заголовок сообщения:
СообщениеДобавлено: 13 сен 2006, 20:12 
Не в сети
Завсегдатай
Завсегдатай
Аватар пользователя

Зарегистрирован: 21 авг 2006, 16:35
Сообщений: 92
Откуда: не скажу :р

_________________
(\_/)
(='.'
Е[:]||||||[:]З
(") (") Всех с Наступившим!


Пожаловаться на это сообщение
Вернуться наверх
 Профиль  
Ответить с цитатой  
 Заголовок сообщения:
СообщениеДобавлено: 13 сен 2006, 21:51 
Не в сети
Душа компании
Душа компании
Аватар пользователя

Зарегистрирован: 25 дек 2005, 16:39
Сообщений: 185

_________________
Иногда, страх помогает думать и говорить... Твой кошмар уже рядом...


Пожаловаться на это сообщение
Вернуться наверх
 Профиль  
Ответить с цитатой  
 Заголовок сообщения:
СообщениеДобавлено: 13 сен 2006, 22:59 
Не в сети
Активист форума
Активист форума
Аватар пользователя

Зарегистрирован: 20 июл 2006, 21:11
Сообщений: 115
Откуда: НиНо
"Грандж - это новая, трансмутированная форма панк-рока, которая впитала в себя как хеви-метал, так и пролетарский хард-рок таких групп 70-х, как KISS и AEROSMITH".
Из книги "Жизнь и Смерть Курта Кобэйна".

_________________
..::No fate::..


Пожаловаться на это сообщение
Вернуться наверх
 Профиль  
Ответить с цитатой  
 Заголовок сообщения:
СообщениеДобавлено: 14 сен 2006, 19:12 
Не в сети
Гордость форума
Гордость форума
Аватар пользователя

Зарегистрирован: 29 окт 2005, 11:58
Сообщений: 458
Откуда: Н. Новгород
HOTEL CALIFORNIA by The Eagles

*a 12 string strums each of the chords
*a classical guitar does the picking

Bm9 A/B (an A works as well)
|-9-------------------------------------|-X-------------------------------|
|-7---------------2-3-5-7-7/8\7-5/7~~~~-|-10-------3-2--------------------|
|-7--4-4h6p4p3-4------------------------|-9---2-4------0-2-2h4-2----------|
|-7-------------------------------------|-11----------------------4/2-----|
|-9-------------------------------------|-12--------------------------5/7-|
|-7-------------------------------------|-9-------------------------------|

Em ******REPEAT****** F#7
-7--------0------0------0------0|---7p0---10p0-|-----7-6-7-9-10-9-10-12/14-2|
-8------0------0------0------0--|--8-----8-----|---8-----------------------2|
-9----0------2------4------7----|-9-----9------|-9-------------------------3|
-9--2------4------5------9------|--------------|-----------------2----------|
-X------------------------------|--------------|---------------4------------|
-X------------------------------|--------------|-------------2--------------|

*5 BARS OF PERCUSSION THEN PLAY:

Bm9 A/B
|-9----2h3p2---2-2---2---|-------------|-X-----------------------
|-7----------5-----5---3-|-5p3---3-----|-10------3p2---2--2------
|-7--4-------------------|-----4---2/4-|-9---2-4-----4------2--4-
|-7----------------------|-------------|-11----------------------
|-9----------------------|-------------|-12----------------------
|-7----------------------|-------------|-9-----------------------

Em
-----------------7--9-10-9-10-|-12\----------0--------0--------0-
-----5-8--7-7-8h10------------|------------0--------0--------0---
-6-7--------------------------|----------0--------2--------4-----
------------------------------|-------2--------4--------5--------
------------------------------|----------------------------------
------------------------------|----------------------------------

F#7
-------0-7p0---10-12-10----|---9-9h10p9/7-7h9p7/6--3-2-2-2-3-2--0-2----------|
-----0------------------12-|----------------------------------------3--2-----|
---7-----------------------|---------------------------------------------4-3-|
-9-----------9-------------|-------------------------------------------------|
---------------------------|-------------------------------------------------|
---------------------------|-------------------------------------------------|

*The next part is repeated throughout the song with minor variations
(capoed on 7th fret of a 12 string)

|-----------0-----|------2-----|------0-------|----------0-|----------0-------|
|-------0---------|----0---2-4-|----3-----3---|------0-----|------1-----------|
|-----0---0---0-2-|--2---------|--2-----2---2-|----0---0---|----0-----------0-|
|---2-------------|1-----------|0-------------|--2---------|--2-----2---0h2---|
|-----------------|------------|--------------|4-----------|3-----------------|
|-0---------------|------------|--------------|------------|------------------|

|-------3------|------------0---|-----------2---|
|-----0-----0--|--------1-------|-------0-------|
|---0-----0----|------0---0-----|---0-2---2-----|
|--------------|----2-----------|---------------|
|-2------------|--0-------------|-2-------------|
|-------------3|--------------0-|---------------|

*This is the bass run which leads into the song.
Bm F# A E
|----------|----------------|-----------|-------------0-|
|----------|----------------|-----------|---------------|
|----------|----------------|-----------|-------1---1---|
|------2-4-|-2-----0h2p0----|-----------|-----0---0-----|
|-5--------|-------------4--|-4----5-7\-|2--2-----------|
|----------|----------------|-----------|---------------|
G D Em F#
|-----------------|-------------|----------|-----------|
|-----------------|-------------|----------|-----------|
|-----------------|-------------|----------|-----------|
|-----------------|---0---/4----|-2----4-5-|-4h5p4p2-4-|
|-2----4---5-(5)\-|4----0-----5-|----------|-----------|
|-----------------|-------------|----------|-----------|

Bm F#
On a dark desert highway, cool wind in my hair
A E
Warm smell of colitas rising up through the air
G D
Up ahead in the distance, I saw a shimmering light
Em
My head grew heavy and my sight grew dim
F#
I had to stop for the night

Bm F#
There she stood in the doorway; I heard the mission bell
A E
And I was thinking to myself this could be heaven or this could be hell
G D
Then she lit up a candle, and she showed me the way
Em F#
There were voices down the corridor, I thought I heard them say

D---------5--
A---1-2-4-5--
E-2----------

G D *1st time *second time
Welcome to the Hotel California. B-3-3--3--3-------- E|-9--9--9-/7-7-7/5-5\
G-2-2--4--2-/6-4-2- B|-10-10-10/8-8-8/7-5\
D-----------/7-5-4-
A------------------

Em Bm7
Such a lovely place, such a lovely face
D|---------2-4-5-
A|2--4--5--------

G D
(1)Plenty of room at the Hotel California E|-9--9-/7-7-7-7/5-5-5\
B|-10-10/8-8-8-8/7-7-7\

(2)They livin' it up at the Hotel California E|-9--9--9-/7-7-7/5-5\
B|-10-10-10/8-8-8/7-7\
Em F#
(1)Any time of year (any time of year) you can find it here
(2)What a nice surprise (what a nice surprise) bring your alibis


Her mind is Tiffany twisted, she got the Mercedes bends
She got a lot of pretty, pretty boys that she calls friends
How they dance in the courtyard, sweet summer sweat
Some dance to remember, some dance to forget

So I called up the captain; "Please bring me my wine."
"We haven't had that spirit here since nineteen sixty-nine"
And still those voices are calling from far away
Wake you up in the middle of the night, just to hear them say

CHORUS (with ending 2)

Mirrors on the ceiling, the pink champagne on ice
And she said "We are all just prisoners here, of our own device"
And in the master's chambers, they gathered for the feast
They stab it with their steely knives, but they just can't kill the beast

Last thing I remember, I was running for the door
I had to find the passage back to the place I was before
"Relax" said the nightman, "We are programmed to receive"
"You can check out anytime you like, but you can never leave"

1st solo:
Bm F#
|-------|---------------------|-7-5-3-2----9-10-|
|-------|---------------------|-----------------|
|-----6-|9--9-9-9-9\7-6-9-7-6-|-7-6-4-3---------|
|-8-9---|---------------------|-----------------|
|-------|---------------------|-----------------|
|-------|---------------------|-----------------|
A E
|-12-12-12-12~~~12-10-9----10-9-------|-------------|
|-----------------------12------12-10-|-9-----------|
|-------------------------------------|---9---------|
|-------------------------------------|-----9-------|
|-------------------------------------|-------9h11--|
|-------------------------------------|------------2|
G D
|--------------------------------|-----------|
|--------------------------------|-----------|
|----------------------------2/4-|2-----4----|
|--------------2----4-2--5-4-----|---12---4--|
|-----0-2--5-4---5---------------|----|------|
|---3----------------------------|----|------|
|
--harmonic

Em F#7
|-0------0------0-------0-|---2----------2-2-
|---0------0------0-----0-|-----2----------2-
|-----0------0------0---0-|-------3----------
|-------2------2------2---|---------4------4-
|-------------------------|-----------4------
|-------------------------|-2-----------2----
*****roll w/pick hand finger***********

2nd solo:
Bm
------------------------|----------------------------------------------------|
------------------------|----------------------------------------------------|
------------------9-11--|11h12p11\9-11----9-11-11h12p11\9-9h11p9\7-7h9p7\6---|
-9h11p9\8-9-11-12-------|--------------12----------------------------------9-|
------------------------|----------------------------------------------------|
------------------------|----------------------------------------------------|
F# A
|-------------------14-------|------------------------|
|-------12-14-12-11----------|--7-7-7-5-5-5-----------|
|---6-9----------------------|--------------7-7-6-4-2-|
|-8---------------------12\--|7-----------------------|
|----------------------------|------------------------|
|----------------------------|------------------------|
E G
|-------------------------0--------|--------------------------------3-|
|---3-3h5p3\2-2h3p2\0--------------|----------------------------3-5---|
|-1-------------------2-1----------|------------2-4-4h6p4\3-4-6-------|
|------------------------------2-4-|-5h7p5\4-5------------------------|
|----------------------------------|----------------------------------|
|----------------------------------|----------------------------------|
D Em
|-/5-5-5-5/7-5-3/5-----------------------|-------3p0---7p3-0-10p7----12p10----|
|-/7-7-7-7/8-7-5/7-----------------0h2h3-|-5p0-------0------------11-------12\|
|--------------------------0h1h2h3-------|-----0------------------------------|
|------------------0h2h3h4---------------|------------------------------------|
|----------------------------------------|------------------------------------|
|----------------------------------------|------------------------------------|
F#
|-2-2h3p2\0---0h2-0-------------------0-|
|-----------3-------3-2h3p2p0-2-3p2-3---|
|---------------------------------------|
|---------------------------------------|
|---------------------------------------|
|---------------------------------------|

Outro:

GTR 1
Bm F#
e|------------------------------------|-----------------/6-|
B|-7p3----7p3----7p3----7p3----7p3----|-5p2---5p2---5p2----|
G|------4------4------4------4------4-|-----3-----3--------|

GTR 2
e|-10p7---10p7---10p7---10p7---10p7---|-9p6---9p6---9p6/14-|
B|------7------7------7------7------7-|-----7-----7--------|
G|------------------------------------|--------------------|


GTR 1
A E
e|-------------------------------|-----------------/4-|
B|-5p2---5p2---5p2---5p2---5p2---|-3p0---3p0---3p0----|
G|-----2-----2-----2-----2-----2-|-----1-----1--------|

GTR2
e|-9p5---9p5---9p5---9p5---9p5---|-7p4---7p4---7p4/12-|
B|-----5-----5-----5-----5-----5-|-----5-----5--------|
G|-------------------------------|--------------------|


GTR 1
G D
e|-------------------------------|--------------------|
B|-3p0---3p0---3p0---3p0---3p0---|-3-----3-----3---/7-|
G|-------------------------------|---2-----2-----2----|
D|-----5-----5-----5-----5-----5-|-----4-----4--------|

GTR 2
e|-7p3---7p3---7p3---7p3---7p3---|-5p2---5p2---5-/-10-|
B|-----3-----3-----3-----3-----3-|-----3-----3--------|
G|-------------------------------|--------------------|


GTR 1
Em F# Bm
e|-----------------------------------|-------------------2------------|-2-|
B|-4p0---4p0---4p0---4p0---4p0---3h4-|-2-----3p0---5p2-----3---3p2----|-3-|
G|-----2-----2-----2-----2-----2-----|---3-------------3-----4----3-5-|-4-|
D|-----------------------------------|-----4-----4--------------------|-4-|
|-2-|
GTR 2
e|-3p0---3p0---3p0---3p0---3p0-------|-------2----6----7--------------|-7-|
B|-----0-----0-----0-----0-----0-2h3-|-5-2-----3----7----7-------7-11-|-7-|
G|-----------------------------------|-----3-----4----9----7-7-9------|-7-|
D|-----------------------------------|--------------------------------|-9-|


Пожаловаться на это сообщение
Вернуться наверх
 Профиль  
Ответить с цитатой  
 Заголовок сообщения:
СообщениеДобавлено: 14 сен 2006, 20:34 
Не в сети
Завсегдатай
Завсегдатай
Аватар пользователя

Зарегистрирован: 21 авг 2006, 16:35
Сообщений: 92
Откуда: не скажу :р
Металлика... жесть одним словом.

я ток начало выучил дальше пока ступор.Желаю вам удачи!

_________________
(\_/)
(='.'
Е[:]||||||[:]З
(") (") Всех с Наступившим!


Пожаловаться на это сообщение
Вернуться наверх
 Профиль  
Ответить с цитатой  
 Заголовок сообщения:
СообщениеДобавлено: 15 сен 2006, 23:03 
Не в сети
Душа компании
Душа компании
Аватар пользователя

Зарегистрирован: 25 дек 2005, 16:39
Сообщений: 185
Ддт-я получил эту роль
l
пока выучил тока куплет...осталось чуть-чуть :roll:

_________________
Иногда, страх помогает думать и говорить... Твой кошмар уже рядом...


Пожаловаться на это сообщение
Вернуться наверх
 Профиль  
Ответить с цитатой  
 Заголовок сообщения:
СообщениеДобавлено: 15 сен 2006, 23:07 
Не в сети
Душа компании
Душа компании
Аватар пользователя

Зарегистрирован: 25 дек 2005, 16:39
Сообщений: 185
Mozix..у меня вопрос :roll: ты "хотэл калефорния" выучил и играешь?! просто я охренел когда эти табы увидел)) я понимаю что я :sm11 но все же...и Макс бы это не сыграл..

_________________
Иногда, страх помогает думать и говорить... Твой кошмар уже рядом...


Пожаловаться на это сообщение
Вернуться наверх
 Профиль  
Ответить с цитатой  
 Заголовок сообщения:
СообщениеДобавлено: 17 сен 2006, 11:07 
Не в сети
Завсегдатай
Завсегдатай
Аватар пользователя

Зарегистрирован: 21 авг 2006, 16:35
Сообщений: 92
Откуда: не скажу :р
ненадо за меня говорить. Если захочу сыграю!!! :twisted:
просто времени нет.

все, ща сяду и буду учить...

_________________
(\_/)
(='.'
Е[:]||||||[:]З
(") (") Всех с Наступившим!


Пожаловаться на это сообщение
Вернуться наверх
 Профиль  
Ответить с цитатой  
Показать сообщения за:  Сортировать по:  
Форум закрыт Эта тема закрыта, Вы не можете редактировать и оставлять сообщения в ней.  [ Сообщений: 54 ]  На страницу Пред.  1, 2, 3, 4  След.

Часовой пояс: UTC + 3 часа


Кто сейчас на форуме

Сейчас этот форум просматривают: нет зарегистрированных пользователей и гости: 1


Вы не можете начинать темы
Вы не можете отвечать на сообщения
Вы не можете редактировать свои сообщения
Вы не можете удалять свои сообщения
Вы не можете добавлять вложения

Найти:
Перейти:  
cron
Powered by phpBB © 2000, 2002, 2005, 2007 phpBB Group
Template made by DEVPPL Flash Games - Сборка создана CMSart Studio
Русская поддержка phpBB